Rosemary- Punk Rock Show (Chord & Tab)

Sunday, October 28, 2012 | komentar




Rosemary - Punk Rock Show (Chord & Tab)


Song title      : Punk Rock Show
Artist          : Rosemary


FigSax1
e|-------5------7--5----------------------5---------|
B|--7--8----8-7-------8--7-8p7h8---5-7-8-----7h8p7--|
G|--------------------------------------------------|
D|--------------------------------------------------|
A|--------------------------------------------------|
E|--------------------------------------------------|

e|-------5------7--5------------------------------------|
B|--7--8----8-7-------8--7-8p7h8---7h8-7-5---5-7--7--7--|
G|-----------------------------------------7------------|
D|------------------------------------------------------|
A|------------------------------------------------------|
E|------------------------------------------------------|

FigGit1
e|-------------------------------------|
B|--7h8-7-5---5-7-8---7h8-7-5---5-7-8--|
G|----------7-----------------7--------|
D|-------------------------------------|
A|-------------------------------------|
E|-------------------------------------|

FigSax2 & FigGit2
e|---------5--------------------|
B|--------------7--7h8p7-5------|
G|--4--6-7----7------------7-6--|
D|------------------------------|
A|------------------------------|
E|------------------------------|

FigSax3
e|-----------------|
B|--7h8-7-5--------|
G|----------7-6-4--|
D|-----------------|
A|-----------------|
E|-----------------|

FigSax4
e|---------------------------------|
B|-------5-------------7---7---7---|
G|--7------6-----4-----------------|
D|---------------------------------|
A|---------------------------------|
E|---------------------------------|

FigSax5
e|----------------------------------------------------------|
B|--7h8-7-5---5-7---7h8-7-5---5-7---7h8-7-5---5-7-------5---|
G|----------7---------------7---------------7-------7-------|
D|----------------------------------------------------------|
A|----------------------------------------------------------|
E|----------------------------------------------------------|

FigGit3
e|--------------------------------------------------5-5-------------|
B|--7-7-5-5---------7-7-5-5---------7-7-5-5-------------8-8-7-7-----|
G|----------7-7-4-----------7-7-4-----------7-7-4---------------4---|
D|------------------------------------------------------------------|
A|------------------------------------------------------------------|
E|------------------------------------------------------------------|

FigGit4
e|-----------------------------------------------------------------------------------------------------------------------|
B|--7-7-7-7-7---7h8-7-5---------7-7-7-7-7---5---------7-7-7-7-7---7-7-7-7-7---7h8-7-5---------7-7-7-7-7---7h8-7-5--------|
G|----------------------7-6-4-----------------7-6-4-----------------------------------7-6-4-----------------------7-6-4--|
D|-----------------------------------------------------------------------------------------------------------------------|
A|-----------------------------------------------------------------------------------------------------------------------|
E|-----------------------------------------------------------------------------------------------------------------------|

FigSax6
e|---------------7-9-10-9-10-12---10p9-7---7---------------------------------|
B|--------7-8-10-----------------------------10-10-8-8-7-7-------------------|
G|--6-7-9--------------------------------------------------9-9-7-7-6-6-------|
D|---------------------------------------------------------------------9-9---|
A|---------------------------------------------------------------------------|
E|---------------------------------------------------------------------------|


e|-----------------7-9-10-9-10-9-10-9-10-12---10p9------|
B|----------7-8-10---------------------------------12---|
G|----6-7-9---------------------------------------------|
D|--9---------------------------------------------------|
A|------------------------------------------------------|
E|------------------------------------------------------|

FigSax7
e|-------------------|
B|--------5----------|
G|---7---------7-----|
D|-------------------|
A|-------------------|
E|-------------------|

FigSax8
e|---------------7-9-10-9-10-12---10p9-7---7------------------------------------|
B|--------7-8-10-----------------------------10-10-8-8-7-7----------------------|
G|--6-7-9--------------------------------------------------9-9-7-7-6-6---6-7-9--|
D|---------------------------------------------------------------------9--------|
A|------------------------------------------------------------------------------|
E|------------------------------------------------------------------------------|

e|-----------------------------------|
B|-----------------------------------|
G|--6-7--9--7-9--7-9--7-9b11r9-7-6---|
D|-----------------------------------|
A|-----------------------------------|
E|-----------------------------------|

e|---------------7-9-10-9-10-12---10p9-7------7-9--7-9-10--9-10-12--12-10-10-9-9-7-7----------------------|
B|--------7-8-10---------------------------10----------------------------------------10-10----------------|
G|--6-7-9----------------------------------------------------------------------------------8-8-7-7--------|
D|-------------------------------------------------------------------------------------------------9-9-7--|
A|--------------------------------------------------------------------------------------------------------|
E|--------------------------------------------------------------------------------------------------------|

e|---------------7-9-10-9-10-12---10p9-7---|
B|--------7-8-10---------------------------|
G|--6-7-9----------------------------------|
D|-----------------------------------------|
A|-----------------------------------------|
E|-----------------------------------------|



FigSax1
Bm Em A Bm   D Em Fm F#m

FigGit1

FigSax2 & FigGit2
Bm A G A

FigSax2 & FigGit2
Bm A G A

Bm          A      G       A
war, corruption, disaster and the violences
Bm          A      G       A                     FigSax3
that's all that we have seen daily on tv yeahh.. yeahh..
Bm          A      G       A
sex teenage mind.. there're cryin for the loosers
Bm          A      G       A
that's all we have heard daily on radio yeahh..


FigSax4
G            
i think thats enough for me
F#m
and if its ok with you
Em
but i cant guarantee
F#m
if.. that makes yo happier

FigGit3
FigSax5
Bm      A
we need the punk rock show
G       A 
we need the punk rock show
Bm      A
we need the punk rock show
G       A
we need the punk rock show for you

FigGit4
Bm

FigSax2 & FigGit2
Bm A G A

FigSax2 & FigGit2
Bm A G A

FigSax6
Bm A G A Bm A G A

FigSax4
G            
i think thats enough for me
F#m
and if its ok with you
Em
but i cant guarantee
F#m
if.. that makes yo happier

FigGit3
FigSax5
Bm      A
we need the punk rock show
G       A 
we need the punk rock show
Bm      A
we need the punk rock show
G       A
we need the punk rock show for you

FigGit3
FigSax7

FigGit3
FigSax8
Bm      A
we need the punk rock show
G       A 
we need the punk rock show
Bm      A
we need the punk rock show
G       A
we need the punk rock show for you
Share this article :

Post a Comment

 
Support : Creating Website | Cikur Template | Muhammad Rifqy Yasykur
Copyright © 2011. Coretan Bang Rifqy - All Rights Reserved
Template Created by Creating Website Published by Cikur Template
Proudly powered by Blogger